ISO-10303-21;
HEADER;
FILE_DESCRIPTION (( 'STEP AP203' ),
    '1' );
FILE_NAME ('End Cap SDR11_001 117 0140 0315.step',
    '2019-12-16T11:41:12',
    ( '' ),
    ( '' ),
    'SwSTEP 2.0',
    'SolidWorks 2019',
    '' );
FILE_SCHEMA (( 'CONFIG_CONTROL_DESIGN' ));
ENDSEC;

DATA;
#1 = APPROVAL_PERSON_ORGANIZATION ( #212, #254, #111 ) ;
#2 = ORIENTED_EDGE ( 'NONE', *, *, #234, .T. ) ;
#3 = CARTESIAN_POINT ( 'NONE',  ( 0.0000000000000000000, -273.3985356384478678, 0.0000000000000000000 ) ) ;
#4 = ORIENTED_EDGE ( 'NONE', *, *, #154, .F. ) ;
#5 = CARTESIAN_POINT ( 'NONE',  ( 0.0000000000000000000, -273.3985356384478678, 4.449497196089457596 ) ) ;
#6 = ORIENTED_EDGE ( 'NONE', *, *, #167, .T. ) ;
#7 = VECTOR ( 'NONE', #37, 1000.000000000000000 ) ;
#8 = AXIS2_PLACEMENT_3D ( 'NONE', #185, #265, #75 ) ;
#9 = CARTESIAN_POINT ( 'NONE',  ( 1.578569724100937574E-14, 149.9999999999999716, 128.8999999999999204 ) ) ;
#10 = ORIENTED_EDGE ( 'NONE', *, *, #89, .T. ) ;
#11 = ORIENTED_EDGE ( 'NONE', *, *, #154, .T. ) ;
#12 = APPLICATION_PROTOCOL_DEFINITION ( 'international standard', 'config_control_design', 1994, #25 ) ;
#13 = AXIS2_PLACEMENT_3D ( 'NONE', #105, #190, #272 ) ;
#14 = ORIENTED_EDGE ( 'NONE', *, *, #167, .F. ) ;
#15 = ORIENTED_EDGE ( 'NONE', *, *, #95, .T. ) ;
#16 = PERSON_AND_ORGANIZATION_ROLE ( 'design_owner' ) ;
#17 = ORIENTED_EDGE ( 'NONE', *, *, #194, .T. ) ;
#18 = EDGE_CURVE ( 'NONE', #59, #303, #87, .T. ) ;
#19 = ORIENTED_EDGE ( 'NONE', *, *, #72, .F. ) ;
#20 = DATE_AND_TIME ( #235, #229 ) ;
#21 = ORIENTED_EDGE ( 'NONE', *, *, #128, .F. ) ;
#22 = CIRCLE ( 'NONE', #8, 157.5000000000000000 ) ;
#23 = SECURITY_CLASSIFICATION_LEVEL ( 'unclassified' ) ;
#24 = ORIENTED_EDGE ( 'NONE', *, *, #139, .T. ) ;
#25 = APPLICATION_CONTEXT ( 'configuration controlled 3d designs of mechanical parts and assemblies' ) ;
#26 = ORIENTED_EDGE ( 'NONE', *, *, #150, .F. ) ;
#27 = APPROVAL_DATE_TIME ( #238, #173 ) ;
#28 = ORIENTED_EDGE ( 'NONE', *, *, #122, .F. ) ;
#29 = ORIENTED_EDGE ( 'NONE', *, *, #139, .F. ) ;
#30 = ORIENTED_EDGE ( 'NONE', *, *, #128, .T. ) ;
#31 = VERTEX_POINT ( 'NONE', #96 ) ;
#32 = ORIENTED_EDGE ( 'NONE', *, *, #122, .T. ) ;
#33 = ORIENTED_EDGE ( 'NONE', *, *, #225, .F. ) ;
#34 = CARTESIAN_POINT ( 'NONE',  ( 1.928818708657081108E-14, 0.0000000000000000000, 157.4999999999999716 ) ) ;
#35 = ORIENTED_EDGE ( 'NONE', *, *, #95, .F. ) ;
#36 = ORIENTED_EDGE ( 'NONE', *, *, #89, .F. ) ;
#37 = DIRECTION ( 'NONE',  ( -0.0000000000000000000, -1.000000000000000000, -0.0000000000000000000 ) ) ;
#38 = VERTEX_POINT ( 'NONE', #183 ) ;
#39 = ORIENTED_EDGE ( 'NONE', *, *, #72, .T. ) ;
#40 = ORIENTED_EDGE ( 'NONE', *, *, #219, .T. ) ;
#41 = DIRECTION ( 'NONE',  ( -1.224646799147353207E-16, 0.0000000000000000000, -1.000000000000000000 ) ) ;
#42 = ORIENTED_EDGE ( 'NONE', *, *, #219, .F. ) ;
#43 = CIRCLE ( 'NONE', #211, 128.8999999999999204 ) ;
#44 = CARTESIAN_POINT ( 'NONE',  ( 0.0000000000000000000, 0.0000000000000000000, -128.8999999999999488 ) ) ;
#45 = ORIENTED_EDGE ( 'NONE', *, *, #115, .T. ) ;
#46 = DIRECTION ( 'NONE',  ( -0.0000000000000000000, -1.000000000000000000, -0.0000000000000000000 ) ) ;
#47 = VECTOR ( 'NONE', #187, 1000.000000000000000 ) ;
#48 = AXIS2_PLACEMENT_3D ( 'NONE', #203, #283, #97 ) ;
#49 = ORIENTED_EDGE ( 'NONE', *, *, #234, .F. ) ;
#50 = FACE_OUTER_BOUND ( 'NONE', #163, .T. ) ;
#51 = LOCAL_TIME ( 14, 41, 12.00000000000000000, #298 ) ;
#52 = ORIENTED_EDGE ( 'NONE', *, *, #213, .F. ) ;
#53 = CARTESIAN_POINT ( 'NONE',  ( 128.8999999999999773, 0.0000000000000000000, 0.0000000000000000000 ) ) ;
#54 = ORIENTED_EDGE ( 'NONE', *, *, #18, .T. ) ;
#55 = APPLICATION_CONTEXT ( 'configuration controlled 3d designs of mechanical parts and assemblies' ) ;
#56 = ORIENTED_EDGE ( 'NONE', *, *, #225, .T. ) ;
#57 = CARTESIAN_POINT ( 'NONE',  ( 0.0000000000000000000, -273.3985356384478678, 4.449497196089457596 ) ) ;
#58 = EDGE_LOOP ( 'NONE', ( #160, #2, #60 ) ) ;
#59 = VERTEX_POINT ( 'NONE', #263 ) ;
#60 = ORIENTED_EDGE ( 'NONE', *, *, #194, .F. ) ;
#61 = AXIS2_PLACEMENT_3D ( 'NONE', #5, #126, #210 ) ;
#62 = ORIENTED_EDGE ( 'NONE', *, *, #18, .F. ) ;
#63 = PERSON_AND_ORGANIZATION_ROLE ( 'creator' ) ;
#64 = ORIENTED_EDGE ( 'NONE', *, *, #213, .T. ) ;
#65 = ORIENTED_EDGE ( 'NONE', *, *, #150, .T. ) ;
#66 = PERSON_AND_ORGANIZATION_ROLE ( 'creator' ) ;
#67 = EDGE_LOOP ( 'NONE', ( #40, #39, #36, #35 ) ) ;
#68 = TOROIDAL_SURFACE ( 'NONE', #48, -4.449497196089457596, 443.9013498326309559 ) ;
#69 = VERTEX_POINT ( 'NONE', #73 ) ;
#70 = COORDINATED_UNIVERSAL_TIME_OFFSET ( 3, 0, .AHEAD. ) ;
#71 = VERTEX_POINT ( 'NONE', #165 ) ;
#72 = EDGE_CURVE ( 'NONE', #146, #71, #240, .T. ) ;
#73 = CARTESIAN_POINT ( 'NONE',  ( 0.0000000000000000000, 0.0000000000000000000, -157.5000000000000000 ) ) ;
#74 = CC_DESIGN_APPROVAL ( #254, ( #244 ) ) ;
#75 = DIRECTION ( 'NONE',  ( 0.0000000000000000000, 0.0000000000000000000, -1.000000000000000000 ) ) ;
#76 = DIRECTION ( 'NONE',  ( 0.0000000000000000000, 0.0000000000000000000, -1.000000000000000000 ) ) ;
#77 = VECTOR ( 'NONE', #141, 1000.000000000000000 ) ;
#78 = DIRECTION ( 'NONE',  ( -0.0000000000000000000, -1.000000000000000000, -0.0000000000000000000 ) ) ;
#79 = AXIS2_PLACEMENT_3D ( 'NONE', #82, #172, #248 ) ;
#80 = ADVANCED_FACE ( 'NONE', ( #220 ), #68, .F. ) ;
#81 = DIRECTION ( 'NONE',  ( -0.0000000000000000000, -1.000000000000000000, -0.0000000000000000000 ) ) ;
#82 = CARTESIAN_POINT ( 'NONE',  ( 0.0000000000000000000, 170.4805136057509287, 0.0000000000000000000 ) ) ;
#83 = AXIS2_PLACEMENT_3D ( 'NONE', #117, #202, #282 ) ;
#84 = DIRECTION ( 'NONE',  ( 0.0000000000000000000, 0.0000000000000000000, -1.000000000000000000 ) ) ;
#85 = CARTESIAN_POINT ( 'NONE',  ( 0.0000000000000000000, 149.9999999999999716, 0.0000000000000000000 ) ) ;
#86 = VERTEX_POINT ( 'NONE', #119 ) ;
#87 = CIRCLE ( 'NONE', #83, 443.9013498326309559 ) ;
#88 = DIRECTION ( 'NONE',  ( 0.0000000000000000000, 0.0000000000000000000, 1.000000000000000000 ) ) ;
#89 = EDGE_CURVE ( 'NONE', #69, #71, #22, .T. ) ;
#90 = DATE_AND_TIME ( #277, #196 ) ;
#91 = DATE_AND_TIME ( #279, #151 ) ;
#92 = CLOSED_SHELL ( 'NONE', ( #80, #197, #162, #118, #110, #207, #102, #200, #149 ) ) ;
#93 = PERSON_AND_ORGANIZATION ( #206, #164 ) ;
#94 = CIRCLE ( 'NONE', #245, 128.8999999999999773 ) ;
#95 = EDGE_CURVE ( 'NONE', #86, #69, #166, .T. ) ;
#96 = CARTESIAN_POINT ( 'NONE',  ( 1.578569724100938205E-14, 0.0000000000000000000, 128.8999999999999773 ) ) ;
#97 = DIRECTION ( 'NONE',  ( 0.0000000000000000000, 0.0000000000000000000, -1.000000000000000000 ) ) ;
#98 = LOCAL_TIME ( 14, 41, 12.00000000000000000, #70 ) ;
#99 = DESIGN_CONTEXT ( 'detailed design', #55, 'design' ) ;
#100 = CYLINDRICAL_SURFACE ( 'NONE', #130, 128.8999999999999488 ) ;
#101 = CARTESIAN_POINT ( 'NONE',  ( 1.578569724100937890E-14, 0.0000000000000000000, 128.8999999999999488 ) ) ;
#102 = ADVANCED_FACE ( 'NONE', ( #143 ), #221, .T. ) ;
#103 = CARTESIAN_POINT ( 'NONE',  ( 0.0000000000000000000, -273.3985356384478678, 0.0000000000000000000 ) ) ;
#104 = AXIS2_PLACEMENT_3D ( 'NONE', #107, #192, #274 ) ;
#105 = CARTESIAN_POINT ( 'NONE',  ( 0.0000000000000000000, 0.0000000000000000000, 0.0000000000000000000 ) ) ;
#106 = FACE_OUTER_BOUND ( 'NONE', #136, .T. ) ;
#107 = CARTESIAN_POINT ( 'NONE',  ( 0.0000000000000000000, 170.4805136057509287, 0.0000000000000000000 ) ) ;
#108 = CIRCLE ( 'NONE', #261, 128.8999999999999773 ) ;
#109 = AXIS2_PLACEMENT_3D ( 'NONE', #168, #243, #41 ) ;
#110 = ADVANCED_FACE ( 'NONE', ( #284 ), #100, .F. ) ;
#111 = APPROVAL_ROLE ( '' ) ;
#112 = APPROVAL_ROLE ( '' ) ;
#113 = PRODUCT_DEFINITION_FORMATION_WITH_SPECIFIED_SOURCE ( 'HERHANGÝ', '', #132, .NOT_KNOWN. ) ;
#114 = CALENDAR_DATE ( 2019, 16, 12 ) ;
#115 = EDGE_CURVE ( 'NONE', #38, #146, #193, .T. ) ;
#116 = AXIS2_PLACEMENT_3D ( 'NONE', #3, #125, #209 ) ;
#117 = CARTESIAN_POINT ( 'NONE',  ( -5.449062499006076656E-16, -273.3985356384478678, -4.449497196089457596 ) ) ;
#118 = ADVANCED_FACE ( 'NONE', ( #144 ), #223, .F. ) ;
#119 = CARTESIAN_POINT ( 'NONE',  ( 0.0000000000000000000, 170.4805136057509287, -157.4999999999999716 ) ) ;
#120 = DIRECTION ( 'NONE',  ( -0.0000000000000000000, -1.000000000000000000, -0.0000000000000000000 ) ) ;
#121 = DIRECTION ( 'NONE',  ( -0.0000000000000000000, -1.000000000000000000, -0.0000000000000000000 ) ) ;
#122 = EDGE_CURVE ( 'NONE', #303, #31, #285, .T. ) ;
#123 = FACE_OUTER_BOUND ( 'NONE', #267, .T. ) ;
#124 = CARTESIAN_POINT ( 'NONE',  ( 0.0000000000000000000, 0.0000000000000000000, 0.0000000000000000000 ) ) ;
#125 = DIRECTION ( 'NONE',  ( -0.0000000000000000000, -1.000000000000000000, -0.0000000000000000000 ) ) ;
#126 = DIRECTION ( 'NONE',  ( -1.000000000000000000, 0.0000000000000000000, 0.0000000000000000000 ) ) ;
#127 = EDGE_LOOP ( 'NONE', ( #19, #17, #15, #14 ) ) ;
#128 = EDGE_CURVE ( 'NONE', #31, #217, #108, .T. ) ;
#129 = APPLICATION_PROTOCOL_DEFINITION ( 'international standard', 'config_control_design', 1994, #55 ) ;
#130 = AXIS2_PLACEMENT_3D ( 'NONE', #186, #266, #76 ) ;
#131 = DATE_TIME_ROLE ( 'creation_date' ) ;
#132 = PRODUCT ( 'End Cap SDR11_001 117 0140 0315', 'End Cap SDR11_001 117 0140 0315', '', ( #255 ) ) ;
#133 = PERSON_AND_ORGANIZATION ( #206, #164 ) ;
#134 = CC_DESIGN_SECURITY_CLASSIFICATION ( #184, ( #113 ) ) ;
#135 = SHAPE_DEFINITION_REPRESENTATION ( #237, #161 ) ;
#136 = EDGE_LOOP ( 'NONE', ( #10, #6 ) ) ;
#137 = EDGE_LOOP ( 'NONE', ( #4, #21 ) ) ;
#138 = AXIS2_PLACEMENT_3D ( 'NONE', #85, #175, #251 ) ;
#139 = EDGE_CURVE ( 'NONE', #140, #217, #246, .T. ) ;
#140 = VERTEX_POINT ( 'NONE', #224 ) ;
#141 = DIRECTION ( 'NONE',  ( -0.0000000000000000000, -1.000000000000000000, -0.0000000000000000000 ) ) ;
#142 = UNCERTAINTY_MEASURE_WITH_UNIT (LENGTH_MEASURE( 1.000000000000000082E-05 ), #292, 'distance_accuracy_value', 'NONE');
#143 = FACE_OUTER_BOUND ( 'NONE', #127, .T. ) ;
#144 = FACE_OUTER_BOUND ( 'NONE', #252, .T. ) ;
#145 = VECTOR ( 'NONE', #147, 1000.000000000000000 ) ;
#146 = VERTEX_POINT ( 'NONE', #305 ) ;
#147 = DIRECTION ( 'NONE',  ( -0.0000000000000000000, -1.000000000000000000, -0.0000000000000000000 ) ) ;
#148 = DIRECTION ( 'NONE',  ( 0.0000000000000000000, 0.0000000000000000000, -1.000000000000000000 ) ) ;
#149 = ADVANCED_FACE ( 'NONE', ( #123 ), #293, .F. ) ;
#150 = EDGE_CURVE ( 'NONE', #140, #303, #43, .T. ) ;
#151 = LOCAL_TIME ( 14, 41, 12.00000000000000000, #198 ) ;
#152 = DIRECTION ( 'NONE',  ( 0.0000000000000000000, -1.000000000000000000, -0.0000000000000000000 ) ) ;
#153 = DIRECTION ( 'NONE',  ( -1.000000000000000000, 0.0000000000000000000, 0.0000000000000000000 ) ) ;
#154 = EDGE_CURVE ( 'NONE', #217, #31, #94, .T. ) ;
#155 = AXIS2_PLACEMENT_3D ( 'NONE', #191, #273, #84 ) ;
#156 = COORDINATED_UNIVERSAL_TIME_OFFSET ( 3, 0, .AHEAD. ) ;
#157 = PERSON_AND_ORGANIZATION ( #206, #164 ) ;
#158 = CALENDAR_DATE ( 2019, 16, 12 ) ;
#159 = MANIFOLD_SOLID_BREP ( 'Döndür1', #92 ) ;
#160 = ORIENTED_EDGE ( 'NONE', *, *, #115, .F. ) ;
#161 = ADVANCED_BREP_SHAPE_REPRESENTATION ( 'End Cap SDR11_001 117 0140 0315', ( #159, #278 ), #239 ) ;
#162 = ADVANCED_FACE ( 'NONE', ( #227 ), #306, .T. ) ;
#163 = EDGE_LOOP ( 'NONE', ( #49, #45, #42 ) ) ;
#164 = ORGANIZATION ( 'BELÝRTÝLMEMÝÞ', 'BELÝRTÝLMEMÝÞ', '' ) ;
#165 = CARTESIAN_POINT ( 'NONE',  ( 1.928818708657081423E-14, 0.0000000000000000000, 157.5000000000000000 ) ) ;
#166 = LINE ( 'NONE', #242, #7 ) ;
#167 = EDGE_CURVE ( 'NONE', #71, #69, #281, .T. ) ;
#168 = CARTESIAN_POINT ( 'NONE',  ( -5.449062499006076656E-16, -273.3985356384478678, -4.449497196089457596 ) ) ;
#169 = DIRECTION ( 'NONE',  ( 0.0000000000000000000, 0.0000000000000000000, -1.000000000000000000 ) ) ;
#170 = AXIS2_PLACEMENT_3D ( 'NONE', #124, #208, #288 ) ;
#171 = DIRECTION ( 'NONE',  ( 0.0000000000000000000, 0.0000000000000000000, -1.000000000000000000 ) ) ;
#172 = DIRECTION ( 'NONE',  ( -0.0000000000000000000, -1.000000000000000000, -0.0000000000000000000 ) ) ;
#173 = APPROVAL ( #181, 'BELÝRTÝLMEMÝÞ' ) ;
#174 = FACE_BOUND ( 'NONE', #137, .T. ) ;
#175 = DIRECTION ( 'NONE',  ( -0.0000000000000000000, -1.000000000000000000, -0.0000000000000000000 ) ) ;
#176 = PRODUCT_RELATED_PRODUCT_CATEGORY ( 'detail', '', ( #132 ) ) ;
#177 = DIRECTION ( 'NONE',  ( 1.000000000000000000, 0.0000000000000000000, 0.0000000000000000000 ) ) ;
#178 = AXIS2_PLACEMENT_3D ( 'NONE', #57, #153, #231 ) ;
#179 = APPROVAL_DATE_TIME ( #90, #254 ) ;
#180 = APPROVAL_DATE_TIME ( #91, #271 ) ;
#181 = APPROVAL_STATUS ( 'not_yet_approved' ) ;
#182 = AXIS2_PLACEMENT_3D ( 'NONE', #103, #188, #270 ) ;
#183 = CARTESIAN_POINT ( 'NONE',  ( -4.423544863740858091E-14, 199.0805136057509515, 0.0000000000000000000 ) ) ;
#184 = SECURITY_CLASSIFICATION ( '', '', #23 ) ;
#185 = CARTESIAN_POINT ( 'NONE',  ( 0.0000000000000000000, 0.0000000000000000000, 0.0000000000000000000 ) ) ;
#186 = CARTESIAN_POINT ( 'NONE',  ( 0.0000000000000000000, 0.0000000000000000000, 0.0000000000000000000 ) ) ;
#187 = DIRECTION ( 'NONE',  ( -0.0000000000000000000, -1.000000000000000000, -0.0000000000000000000 ) ) ;
#188 = DIRECTION ( 'NONE',  ( -0.0000000000000000000, -1.000000000000000000, -0.0000000000000000000 ) ) ;
#189 = CIRCLE ( 'NONE', #61, 443.9013498326309559 ) ;
#190 = DIRECTION ( 'NONE',  ( -0.0000000000000000000, -1.000000000000000000, -0.0000000000000000000 ) ) ;
#191 = CARTESIAN_POINT ( 'NONE',  ( 0.0000000000000000000, -273.3985356384478678, 0.0000000000000000000 ) ) ;
#192 = DIRECTION ( 'NONE',  ( -0.0000000000000000000, -1.000000000000000000, -0.0000000000000000000 ) ) ;
#193 = CIRCLE ( 'NONE', #109, 472.5000000000000568 ) ;
#194 = EDGE_CURVE ( 'NONE', #146, #86, #201, .T. ) ;
#195 = COORDINATED_UNIVERSAL_TIME_OFFSET ( 3, 0, .AHEAD. ) ;
#196 = LOCAL_TIME ( 14, 41, 12.00000000000000000, #195 ) ;
#197 = ADVANCED_FACE ( 'NONE', ( #50 ), #232, .T. ) ;
#198 = COORDINATED_UNIVERSAL_TIME_OFFSET ( 3, 0, .AHEAD. ) ;
#199 = DATE_AND_TIME ( #114, #51 ) ;
#200 = ADVANCED_FACE ( 'NONE', ( #228 ), #269, .T. ) ;
#201 = CIRCLE ( 'NONE', #79, 157.4999999999999716 ) ;
#202 = DIRECTION ( 'NONE',  ( 1.000000000000000000, 0.0000000000000000000, -1.224646799147353207E-16 ) ) ;
#203 = CARTESIAN_POINT ( 'NONE',  ( 0.0000000000000000000, -273.3985356384478678, 0.0000000000000000000 ) ) ;
#204 = DIRECTION ( 'NONE',  ( 0.0000000000000000000, 0.0000000000000000000, -1.000000000000000000 ) ) ;
#205 = DIRECTION ( 'NONE',  ( 0.0000000000000000000, 0.0000000000000000000, -1.000000000000000000 ) ) ;
#206 = PERSON ( 'BELÝRTÝLMEMÝÞ', 'BELÝRTÝLMEMÝÞ', 'BELÝRTÝLMEMÝÞ', ('BELÝRTÝLMEMÝÞ'), ('BELÝRTÝLMEMÝÞ'), ('BELÝRTÝLMEMÝÞ') ) ;
#207 = ADVANCED_FACE ( 'NONE', ( #106, #174 ), #249, .T. ) ;
#208 = DIRECTION ( 'NONE',  ( -0.0000000000000000000, -1.000000000000000000, -0.0000000000000000000 ) ) ;
#209 = DIRECTION ( 'NONE',  ( 0.0000000000000000000, 0.0000000000000000000, -1.000000000000000000 ) ) ;
#210 = DIRECTION ( 'NONE',  ( 0.0000000000000000000, 0.0000000000000000000, 1.000000000000000000 ) ) ;
#211 = AXIS2_PLACEMENT_3D ( 'NONE', #286, #81, #171 ) ;
#212 = PERSON_AND_ORGANIZATION ( #206, #164 ) ;
#213 = EDGE_CURVE ( 'NONE', #59, #140, #189, .T. ) ;
#214 = PERSON_AND_ORGANIZATION ( #206, #164 ) ;
#215 = APPROVAL_PERSON_ORGANIZATION ( #93, #173, #260 ) ;
#216 = PERSON_AND_ORGANIZATION_ROLE ( 'classification_officer' ) ;
#217 = VERTEX_POINT ( 'NONE', #291 ) ;
#218 = CIRCLE ( 'NONE', #104, 157.4999999999999716 ) ;
#219 = EDGE_CURVE ( 'NONE', #86, #146, #218, .T. ) ;
#220 = FACE_OUTER_BOUND ( 'NONE', #290, .T. ) ;
#221 = CYLINDRICAL_SURFACE ( 'NONE', #226, 157.4999999999999716 ) ;
#222 = AXIS2_PLACEMENT_3D ( 'NONE', #304, #121, #205 ) ;
#223 = CYLINDRICAL_SURFACE ( 'NONE', #222, 128.8999999999999488 ) ;
#224 = CARTESIAN_POINT ( 'NONE',  ( 0.0000000000000000000, 149.9999999999999716, -128.8999999999999204 ) ) ;
#225 = EDGE_CURVE ( 'NONE', #303, #140, #256, .T. ) ;
#226 = AXIS2_PLACEMENT_3D ( 'NONE', #302, #120, #204 ) ;
#227 = FACE_OUTER_BOUND ( 'NONE', #67, .T. ) ;
#228 = FACE_OUTER_BOUND ( 'NONE', #58, .T. ) ;
#229 = LOCAL_TIME ( 14, 41, 12.00000000000000000, #156 ) ;
#230 = DIRECTION ( 'NONE',  ( 0.0000000000000000000, 0.0000000000000000000, -1.000000000000000000 ) ) ;
#231 = DIRECTION ( 'NONE',  ( 0.0000000000000000000, 0.0000000000000000000, 1.000000000000000000 ) ) ;
#232 = TOROIDAL_SURFACE ( 'NONE', #116, -4.449497196089457596, 472.5000000000000568 ) ;
#233 = PERSON_AND_ORGANIZATION ( #206, #164 ) ;
#234 = EDGE_CURVE ( 'NONE', #38, #86, #287, .T. ) ;
#235 = CALENDAR_DATE ( 2019, 16, 12 ) ;
#236 = PERSON_AND_ORGANIZATION_ROLE ( 'design_supplier' ) ;
#237 = PRODUCT_DEFINITION_SHAPE ( 'NONE', 'NONE',  #244 ) ;
#238 = DATE_AND_TIME ( #158, #98 ) ;
#239 =( GEOMETRIC_REPRESENTATION_CONTEXT ( 3 ) GLOBAL_UNCERTAINTY_ASSIGNED_CONTEXT ( ( #142 ) ) GLOBAL_UNIT_ASSIGNED_CONTEXT ( ( #292, #275, #253 ) ) REPRESENTATION_CONTEXT ( 'NONE', 'WORKASPACE' ) );
#240 = LINE ( 'NONE', #34, #77 ) ;
#241 = CC_DESIGN_PERSON_AND_ORGANIZATION_ASSIGNMENT ( #233, #16, ( #132 ) ) ;
#242 = CARTESIAN_POINT ( 'NONE',  ( 0.0000000000000000000, 0.0000000000000000000, -157.4999999999999716 ) ) ;
#243 = DIRECTION ( 'NONE',  ( 1.000000000000000000, 0.0000000000000000000, -1.224646799147353207E-16 ) ) ;
#244 = PRODUCT_DEFINITION ( 'BÝLÝNMEYEN', '', #113, #99 ) ;
#245 = AXIS2_PLACEMENT_3D ( 'NONE', #247, #46, #148 ) ;
#246 = LINE ( 'NONE', #44, #145 ) ;
#247 = CARTESIAN_POINT ( 'NONE',  ( 0.0000000000000000000, 0.0000000000000000000, 0.0000000000000000000 ) ) ;
#248 = DIRECTION ( 'NONE',  ( 0.0000000000000000000, 0.0000000000000000000, -1.000000000000000000 ) ) ;
#249 = PLANE ( 'NONE',  #300 ) ;
#250 = CC_DESIGN_APPROVAL ( #173, ( #184 ) ) ;
#251 = DIRECTION ( 'NONE',  ( 0.0000000000000000000, 0.0000000000000000000, -1.000000000000000000 ) ) ;
#252 = EDGE_LOOP ( 'NONE', ( #33, #32, #30, #29 ) ) ;
#253 =( NAMED_UNIT ( * ) SI_UNIT ( $, .STERADIAN. ) SOLID_ANGLE_UNIT ( ) );
#254 = APPROVAL ( #295, 'BELÝRTÝLMEMÝÞ' ) ;
#255 = MECHANICAL_CONTEXT ( 'NONE', #25, 'mechanical' ) ;
#256 = CIRCLE ( 'NONE', #138, 128.8999999999999204 ) ;
#257 = PERSON_AND_ORGANIZATION ( #206, #164 ) ;
#258 = PERSON_AND_ORGANIZATION ( #206, #164 ) ;
#259 = CC_DESIGN_PERSON_AND_ORGANIZATION_ASSIGNMENT ( #257, #63, ( #244 ) ) ;
#260 = APPROVAL_ROLE ( '' ) ;
#261 = AXIS2_PLACEMENT_3D ( 'NONE', #268, #78, #169 ) ;
#262 = CC_DESIGN_DATE_AND_TIME_ASSIGNMENT ( #20, #131, ( #244 ) ) ;
#263 = CARTESIAN_POINT ( 'NONE',  ( -3.548305265906138184E-14, 170.4805136057509287, 0.0000000000000000000 ) ) ;
#264 = APPROVAL_PERSON_ORGANIZATION ( #214, #271, #112 ) ;
#265 = DIRECTION ( 'NONE',  ( -0.0000000000000000000, -1.000000000000000000, -0.0000000000000000000 ) ) ;
#266 = DIRECTION ( 'NONE',  ( -0.0000000000000000000, -1.000000000000000000, -0.0000000000000000000 ) ) ;
#267 = EDGE_LOOP ( 'NONE', ( #62, #64, #65 ) ) ;
#268 = CARTESIAN_POINT ( 'NONE',  ( 0.0000000000000000000, 0.0000000000000000000, 0.0000000000000000000 ) ) ;
#269 = TOROIDAL_SURFACE ( 'NONE', #155, -4.449497196089457596, 472.5000000000000568 ) ;
#270 = DIRECTION ( 'NONE',  ( 0.0000000000000000000, 0.0000000000000000000, -1.000000000000000000 ) ) ;
#271 = APPROVAL ( #296, 'BELÝRTÝLMEMÝÞ' ) ;
#272 = DIRECTION ( 'NONE',  ( 0.0000000000000000000, 0.0000000000000000000, -1.000000000000000000 ) ) ;
#273 = DIRECTION ( 'NONE',  ( -0.0000000000000000000, -1.000000000000000000, -0.0000000000000000000 ) ) ;
#274 = DIRECTION ( 'NONE',  ( 0.0000000000000000000, 0.0000000000000000000, -1.000000000000000000 ) ) ;
#275 =( NAMED_UNIT ( * ) PLANE_ANGLE_UNIT ( ) SI_UNIT ( $, .RADIAN. ) );
#276 = CARTESIAN_POINT ( 'NONE',  ( 0.0000000000000000000, 0.0000000000000000000, 0.0000000000000000000 ) ) ;
#277 = CALENDAR_DATE ( 2019, 16, 12 ) ;
#278 = AXIS2_PLACEMENT_3D ( 'NONE', #276, #88, #177 ) ;
#279 = CALENDAR_DATE ( 2019, 16, 12 ) ;
#280 = DATE_TIME_ROLE ( 'classification_date' ) ;
#281 = CIRCLE ( 'NONE', #13, 157.5000000000000000 ) ;
#282 = DIRECTION ( 'NONE',  ( -1.224646799147353207E-16, 0.0000000000000000000, -1.000000000000000000 ) ) ;
#283 = DIRECTION ( 'NONE',  ( -0.0000000000000000000, -1.000000000000000000, -0.0000000000000000000 ) ) ;
#284 = FACE_OUTER_BOUND ( 'NONE', #301, .T. ) ;
#285 = LINE ( 'NONE', #101, #47 ) ;
#286 = CARTESIAN_POINT ( 'NONE',  ( 0.0000000000000000000, 149.9999999999999716, 0.0000000000000000000 ) ) ;
#287 = CIRCLE ( 'NONE', #178, 472.5000000000000568 ) ;
#288 = DIRECTION ( 'NONE',  ( 0.0000000000000000000, 0.0000000000000000000, -1.000000000000000000 ) ) ;
#289 = CC_DESIGN_PERSON_AND_ORGANIZATION_ASSIGNMENT ( #258, #66, ( #113 ) ) ;
#290 = EDGE_LOOP ( 'NONE', ( #52, #54, #56 ) ) ;
#291 = CARTESIAN_POINT ( 'NONE',  ( 0.0000000000000000000, 0.0000000000000000000, -128.8999999999999773 ) ) ;
#292 =( LENGTH_UNIT ( ) NAMED_UNIT ( * ) SI_UNIT ( .MILLI., .METRE. ) );
#293 = TOROIDAL_SURFACE ( 'NONE', #182, -4.449497196089457596, 443.9013498326309559 ) ;
#294 = CC_DESIGN_PERSON_AND_ORGANIZATION_ASSIGNMENT ( #157, #236, ( #113 ) ) ;
#295 = APPROVAL_STATUS ( 'not_yet_approved' ) ;
#296 = APPROVAL_STATUS ( 'not_yet_approved' ) ;
#297 = CC_DESIGN_APPROVAL ( #271, ( #113 ) ) ;
#298 = COORDINATED_UNIVERSAL_TIME_OFFSET ( 3, 0, .AHEAD. ) ;
#299 = CC_DESIGN_PERSON_AND_ORGANIZATION_ASSIGNMENT ( #133, #216, ( #184 ) ) ;
#300 = AXIS2_PLACEMENT_3D ( 'NONE', #53, #152, #230 ) ;
#301 = EDGE_LOOP ( 'NONE', ( #28, #26, #24, #11 ) ) ;
#302 = CARTESIAN_POINT ( 'NONE',  ( 0.0000000000000000000, 0.0000000000000000000, 0.0000000000000000000 ) ) ;
#303 = VERTEX_POINT ( 'NONE', #9 ) ;
#304 = CARTESIAN_POINT ( 'NONE',  ( 0.0000000000000000000, 0.0000000000000000000, 0.0000000000000000000 ) ) ;
#305 = CARTESIAN_POINT ( 'NONE',  ( 1.928818708657081108E-14, 170.4805136057509287, 157.4999999999999716 ) ) ;
#306 = CYLINDRICAL_SURFACE ( 'NONE', #170, 157.4999999999999716 ) ;
#307 = CC_DESIGN_DATE_AND_TIME_ASSIGNMENT ( #199, #280, ( #184 ) ) ;
ENDSEC;
END-ISO-10303-21;
